ISO-10303-21;
HEADER;
FILE_DESCRIPTION (( 'STEP AP203' ),
    '1' );
FILE_NAME ('BK7-LPBSC-25.4-405.STEP',
    '2020-12-22T03:14:27',
    ( '' ),
    ( '' ),
    'SwSTEP 2.0',
    'SolidWorks 2020',
    '' );
FILE_SCHEMA (( 'CONFIG_CONTROL_DESIGN' ));
ENDSEC;

DATA;
#1 = EDGE_LOOP ( 'NONE', ( #25, #303, #275, #246 ) ) ;
#2 = AXIS2_PLACEMENT_3D ( 'NONE', #278, #27, #76 ) ;
#3 = ORIENTED_EDGE ( 'NONE', *, *, #285, .F. ) ;
#4 = ORIENTED_EDGE ( 'NONE', *, *, #285, .T. ) ;
#5 = LINE ( 'NONE', #51, #224 ) ;
#6 = ORIENTED_EDGE ( 'NONE', *, *, #191, .F. ) ;
#7 = VERTEX_POINT ( 'NONE', #200 ) ;
#8 = APPROVAL_STATUS ( 'not_yet_approved' ) ;
#9 = PERSON_AND_ORGANIZATION_ROLE ( 'design_owner' ) ;
#10 = CARTESIAN_POINT ( 'NONE',  ( -12.69999999999999574, -12.69999999999999396, 12.69999999999999929 ) ) ;
#11 = LINE ( 'NONE', #260, #280 ) ;
#12 = PERSON_AND_ORGANIZATION ( #154, #313 ) ;
#13 = CC_DESIGN_APPROVAL ( #143, ( #164 ) ) ;
#14 = CARTESIAN_POINT ( 'NONE',  ( 12.69999999999999574, 12.69999999999999574, 12.69999999999999929 ) ) ;
#15 = AXIS2_PLACEMENT_3D ( 'NONE', #311, #31, #132 ) ;
#16 = DIRECTION ( 'NONE',  ( -0.000000000000000000, 0.000000000000000000, 1.000000000000000000 ) ) ;
#17 = MECHANICAL_CONTEXT ( 'NONE', #212, 'mechanical' ) ;
#18 = LINE ( 'NONE', #222, #294 ) ;
#19 = VECTOR ( 'NONE', #299, 999.9999999999998863 ) ;
#20 = CARTESIAN_POINT ( 'NONE',  ( 0.000000000000000000, 0.000000000000000000, -12.69999999999999929 ) ) ;
#21 = CARTESIAN_POINT ( 'NONE',  ( 12.69999999999999929, -12.69999999999999929, -12.69999999999999929 ) ) ;
#22 = ORIENTED_EDGE ( 'NONE', *, *, #55, .F. ) ;
#23 = CLOSED_SHELL ( 'NONE', ( #210, #82, #97, #301, #160 ) ) ;
#24 = ADVANCED_FACE ( 'NONE', ( #95 ), #250, .F. ) ;
#25 = ORIENTED_EDGE ( 'NONE', *, *, #105, .F. ) ;
#26 = ADVANCED_FACE ( 'NONE', ( #233 ), #146, .F. ) ;
#27 = DIRECTION ( 'NONE',  ( -0.000000000000000000, 0.000000000000000000, 1.000000000000000000 ) ) ;
#28 = ORIENTED_EDGE ( 'NONE', *, *, #279, .T. ) ;
#29 = DATE_TIME_ROLE ( 'classification_date' ) ;
#30 = DIRECTION ( 'NONE',  ( 0.000000000000000000, 0.000000000000000000, 1.000000000000000000 ) ) ;
#31 = DIRECTION ( 'NONE',  ( 0.000000000000000000, 0.000000000000000000, 1.000000000000000000 ) ) ;
#32 = DATE_TIME_ROLE ( 'creation_date' ) ;
#33 = VECTOR ( 'NONE', #41, 1000.000000000000000 ) ;
#34 = CARTESIAN_POINT ( 'NONE',  ( 12.69999999999999929, 12.69999999999999929, 12.69999999999999929 ) ) ;
#35 = CARTESIAN_POINT ( 'NONE',  ( 12.69999999999999574, 12.69999999999999574, 12.69999999999999929 ) ) ;
#36 = APPROVAL_DATE_TIME ( #174, #203 ) ;
#37 = LINE ( 'NONE', #286, #79 ) ;
#38 = PERSON_AND_ORGANIZATION ( #154, #313 ) ;
#39 = LOCAL_TIME ( 11, 14, 27.00000000000000000, #308 ) ;
#40 = DIRECTION ( 'NONE',  ( 0.7071067811865474617, 0.7071067811865474617, 0.000000000000000000 ) ) ;
#41 = DIRECTION ( 'NONE',  ( 1.000000000000000000, 0.000000000000000000, 0.000000000000000000 ) ) ;
#42 = DIRECTION ( 'NONE',  ( -0.7071067811865475727, 0.7071067811865475727, 0.000000000000000000 ) ) ;
#43 = AXIS2_PLACEMENT_3D ( 'NONE', #255, #81, #30 ) ;
#44 = VECTOR ( 'NONE', #74, 1000.000000000000000 ) ;
#45 = CARTESIAN_POINT ( 'NONE',  ( -12.69999999999999751, -12.69999999999999929, 12.69999999999999929 ) ) ;
#46 = DESIGN_CONTEXT ( 'detailed design', #310, 'design' ) ;
#47 = ORIENTED_EDGE ( 'NONE', *, *, #53, .T. ) ;
#48 =( LENGTH_UNIT ( ) NAMED_UNIT ( * ) SI_UNIT ( .MILLI., .METRE. ) );
#49 = VERTEX_POINT ( 'NONE', #309 ) ;
#50 = EDGE_CURVE ( 'NONE', #49, #7, #196, .T. ) ;
#51 = CARTESIAN_POINT ( 'NONE',  ( -12.69999999999999574, -12.69999999999999396, 12.69999999999999929 ) ) ;
#52 = CC_DESIGN_SECURITY_CLASSIFICATION ( #248, ( #186 ) ) ;
#53 = EDGE_CURVE ( 'NONE', #57, #228, #312, .T. ) ;
#54 = ORIENTED_EDGE ( 'NONE', *, *, #270, .T. ) ;
#55 = EDGE_CURVE ( 'NONE', #151, #140, #290, .T. ) ;
#56 = VERTEX_POINT ( 'NONE', #262 ) ;
#57 = VERTEX_POINT ( 'NONE', #67 ) ;
#58 = PERSON_AND_ORGANIZATION_ROLE ( 'creator' ) ;
#59 = PERSON_AND_ORGANIZATION ( #154, #313 ) ;
#60 = VECTOR ( 'NONE', #273, 1000.000000000000000 ) ;
#61 = MANIFOLD_SOLID_BREP ( '¾µÏ', #181 ) ;
#62 = PERSON_AND_ORGANIZATION ( #154, #313 ) ;
#63 = PRODUCT_DEFINITION_SHAPE ( 'NONE', 'NONE',  #164 ) ;
#64 = CARTESIAN_POINT ( 'NONE',  ( -12.69999999999999751, -12.69999999999999929, -12.69999999999999929 ) ) ;
#65 = FACE_OUTER_BOUND ( 'NONE', #225, .T. ) ;
#66 = DIRECTION ( 'NONE',  ( -0.7071067811865474617, -0.7071067811865474617, 0.000000000000000000 ) ) ;
#67 = CARTESIAN_POINT ( 'NONE',  ( 12.69999999999999929, 12.69999999999999929, -12.69999999999999929 ) ) ;
#68 = APPROVAL_STATUS ( 'not_yet_approved' ) ;
#69 = AXIS2_PLACEMENT_3D ( 'NONE', #71, #269, #40 ) ;
#70 = EDGE_CURVE ( 'NONE', #78, #7, #88, .T. ) ;
#71 = CARTESIAN_POINT ( 'NONE',  ( 12.69999999999999929, 12.69999999999999929, 12.69999999999999929 ) ) ;
#72 = DIRECTION ( 'NONE',  ( -2.220446049250312588E-16, 1.000000000000000000, 0.000000000000000000 ) ) ;
#73 = ORIENTED_EDGE ( 'NONE', *, *, #109, .T. ) ;
#74 = DIRECTION ( 'NONE',  ( 0.000000000000000000, 0.000000000000000000, -1.000000000000000000 ) ) ;
#75 = APPROVAL ( #8, 'UNSPECIFIED' ) ;
#76 = DIRECTION ( 'NONE',  ( 1.000000000000000000, 0.000000000000000000, 0.000000000000000000 ) ) ;
#77 = ORIENTED_EDGE ( 'NONE', *, *, #272, .T. ) ;
#78 = VERTEX_POINT ( 'NONE', #316 ) ;
#79 = VECTOR ( 'NONE', #234, 1000.000000000000000 ) ;
#80 = ORIENTED_EDGE ( 'NONE', *, *, #70, .F. ) ;
#81 = DIRECTION ( 'NONE',  ( 2.220446049250312588E-16, -1.000000000000000000, 0.000000000000000000 ) ) ;
#82 = ADVANCED_FACE ( 'NONE', ( #150 ), #238, .F. ) ;
#83 = COORDINATED_UNIVERSAL_TIME_OFFSET ( 8, 0, .AHEAD. ) ;
#84 = CARTESIAN_POINT ( 'NONE',  ( -12.69999999999999574, -12.69999999999999396, 12.69999999999999929 ) ) ;
#85 = APPLICATION_PROTOCOL_DEFINITION ( 'international standard', 'config_control_design', 1994, #212 ) ;
#86 = VECTOR ( 'NONE', #66, 1000.000000000000114 ) ;
#87 = APPROVAL_PERSON_ORGANIZATION ( #62, #203, #291 ) ;
#88 = LINE ( 'NONE', #265, #153 ) ;
#89 = DIRECTION ( 'NONE',  ( -0.7071067811865474617, -0.7071067811865474617, 0.000000000000000000 ) ) ;
#90 = LINE ( 'NONE', #180, #208 ) ;
#91 = VECTOR ( 'NONE', #108, 1000.000000000000000 ) ;
#92 = FACE_OUTER_BOUND ( 'NONE', #257, .T. ) ;
#93 = DIRECTION ( 'NONE',  ( 0.7071067811865475727, 0.7071067811865475727, 0.000000000000000000 ) ) ;
#94 = EDGE_LOOP ( 'NONE', ( #6, #22, #3 ) ) ;
#95 = FACE_OUTER_BOUND ( 'NONE', #1, .T. ) ;
#96 = CARTESIAN_POINT ( 'NONE',  ( -12.70000000000000284, 12.70000000000000284, -12.69999999999999929 ) ) ;
#97 = ADVANCED_FACE ( 'NONE', ( #92 ), #128, .F. ) ;
#98 = DIRECTION ( 'NONE',  ( -0.000000000000000000, 1.000000000000000000, -0.000000000000000000 ) ) ;
#99 = ORIENTED_EDGE ( 'NONE', *, *, #105, .T. ) ;
#100 = EDGE_LOOP ( 'NONE', ( #141, #249, #4, #171 ) ) ;
#101 = CALENDAR_DATE ( 2020, 22, 12 ) ;
#102 = SECURITY_CLASSIFICATION_LEVEL ( 'unclassified' ) ;
#103 = DIRECTION ( 'NONE',  ( 1.000000000000000000, -2.220446049250312588E-16, 0.000000000000000000 ) ) ;
#104 = CC_DESIGN_PERSON_AND_ORGANIZATION_ASSIGNMENT ( #284, #123, ( #164 ) ) ;
#105 = EDGE_CURVE ( 'NONE', #298, #78, #37, .T. ) ;
#106 = CALENDAR_DATE ( 2020, 22, 12 ) ;
#107 = CC_DESIGN_APPROVAL ( #75, ( #248 ) ) ;
#108 = DIRECTION ( 'NONE',  ( 1.000000000000000000, 0.000000000000000000, 0.000000000000000000 ) ) ;
#109 = EDGE_CURVE ( 'NONE', #228, #252, #206, .T. ) ;
#110 = CARTESIAN_POINT ( 'NONE',  ( -12.70000000000000284, 12.70000000000000284, 12.69999999999999929 ) ) ;
#111 =( GEOMETRIC_REPRESENTATION_CONTEXT ( 3 ) GLOBAL_UNCERTAINTY_ASSIGNED_CONTEXT ( ( #166 ) ) GLOBAL_UNIT_ASSIGNED_CONTEXT ( ( #48, #170, #121 ) ) REPRESENTATION_CONTEXT ( 'NONE', 'WORKASPACE' ) );
#112 = PERSON_AND_ORGANIZATION ( #154, #313 ) ;
#113 = CC_DESIGN_DATE_AND_TIME_ASSIGNMENT ( #239, #29, ( #248 ) ) ;
#114 = DIRECTION ( 'NONE',  ( 0.000000000000000000, 0.000000000000000000, 1.000000000000000000 ) ) ;
#115 = PLANE ( 'NONE',  #133 ) ;
#116 = ORIENTED_EDGE ( 'NONE', *, *, #259, .T. ) ;
#117 = ORIENTED_EDGE ( 'NONE', *, *, #245, .F. ) ;
#118 = VECTOR ( 'NONE', #184, 1000.000000000000000 ) ;
#119 = APPROVAL_PERSON_ORGANIZATION ( #38, #143, #216 ) ;
#120 = VERTEX_POINT ( 'NONE', #131 ) ;
#121 =( NAMED_UNIT ( * ) SI_UNIT ( $, .STERADIAN. ) SOLID_ANGLE_UNIT ( ) );
#122 = ORIENTED_EDGE ( 'NONE', *, *, #282, .F. ) ;
#123 = PERSON_AND_ORGANIZATION_ROLE ( 'creator' ) ;
#124 = EDGE_LOOP ( 'NONE', ( #47, #261, #173, #193 ) ) ;
#125 = EDGE_CURVE ( 'NONE', #56, #57, #11, .T. ) ;
#126 = ORIENTED_EDGE ( 'NONE', *, *, #191, .T. ) ;
#127 = APPROVAL_STATUS ( 'not_yet_approved' ) ;
#128 = PLANE ( 'NONE',  #142 ) ;
#129 = VECTOR ( 'NONE', #271, 1000.000000000000000 ) ;
#130 = CARTESIAN_POINT ( 'NONE',  ( 0.000000000000000000, 0.000000000000000000, -12.69999999999999929 ) ) ;
#131 = CARTESIAN_POINT ( 'NONE',  ( -12.69999999999999751, -12.69999999999999929, 12.69999999999999929 ) ) ;
#132 = DIRECTION ( 'NONE',  ( 1.000000000000000000, 0.000000000000000000, 0.000000000000000000 ) ) ;
#133 = AXIS2_PLACEMENT_3D ( 'NONE', #20, #114, #162 ) ;
#134 = LINE ( 'NONE', #188, #33 ) ;
#135 = CALENDAR_DATE ( 2020, 22, 12 ) ;
#136 = CARTESIAN_POINT ( 'NONE',  ( 12.69999999999999574, 12.69999999999999574, 12.69999999999999929 ) ) ;
#137 = PRODUCT_RELATED_PRODUCT_CATEGORY ( 'detail', '', ( #232 ) ) ;
#138 = DIRECTION ( 'NONE',  ( -0.000000000000000000, -0.000000000000000000, -1.000000000000000000 ) ) ;
#139 = ORIENTED_EDGE ( 'NONE', *, *, #169, .F. ) ;
#140 = VERTEX_POINT ( 'NONE', #14 ) ;
#141 = ORIENTED_EDGE ( 'NONE', *, *, #272, .F. ) ;
#142 = AXIS2_PLACEMENT_3D ( 'NONE', #34, #158, #267 ) ;
#143 = APPROVAL ( #68, 'UNSPECIFIED' ) ;
#144 = ORIENTED_EDGE ( 'NONE', *, *, #70, .T. ) ;
#145 = ORIENTED_EDGE ( 'NONE', *, *, #125, .F. ) ;
#146 = PLANE ( 'NONE',  #240 ) ;
#147 = ORIENTED_EDGE ( 'NONE', *, *, #148, .T. ) ;
#148 = EDGE_CURVE ( 'NONE', #56, #120, #209, .T. ) ;
#149 = PERSON_AND_ORGANIZATION_ROLE ( 'design_supplier' ) ;
#150 = FACE_OUTER_BOUND ( 'NONE', #227, .T. ) ;
#151 = VERTEX_POINT ( 'NONE', #110 ) ;
#152 = PLANE ( 'NONE',  #167 ) ;
#153 = VECTOR ( 'NONE', #214, 999.9999999999998863 ) ;
#154 = PERSON ( 'UNSPECIFIED', 'UNSPECIFIED', 'UNSPECIFIED', ('UNSPECIFIED'), ('UNSPECIFIED'), ('UNSPECIFIED') ) ;
#155 = FACE_OUTER_BOUND ( 'NONE', #168, .T. ) ;
#156 = CALENDAR_DATE ( 2020, 22, 12 ) ;
#157 = MANIFOLD_SOLID_BREP ( 'Í¹Ì¨-À', #23 ) ;
#158 = DIRECTION ( 'NONE',  ( -1.000000000000000000, 0.000000000000000000, 0.000000000000000000 ) ) ;
#159 = PERSON_AND_ORGANIZATION ( #154, #313 ) ;
#160 = ADVANCED_FACE ( 'NONE', ( #65 ), #152, .F. ) ;
#161 = LOCAL_TIME ( 11, 14, 27.00000000000000000, #204 ) ;
#162 = DIRECTION ( 'NONE',  ( -2.220446049250312588E-16, 1.000000000000000000, 0.000000000000000000 ) ) ;
#163 = CARTESIAN_POINT ( 'NONE',  ( -12.69999999999999574, -12.69999999999999396, -12.69999999999999929 ) ) ;
#164 = PRODUCT_DEFINITION ( 'UNKNOWN', '', #186, #46 ) ;
#165 = CARTESIAN_POINT ( 'NONE',  ( 12.69999999999999929, 12.69999999999999929, -12.69999999999999929 ) ) ;
#166 = UNCERTAINTY_MEASURE_WITH_UNIT (LENGTH_MEASURE( 1.000000000000000082E-05 ), #48, 'distance_accuracy_value', 'NONE');
#167 = AXIS2_PLACEMENT_3D ( 'NONE', #130, #16, #237 ) ;
#168 = EDGE_LOOP ( 'NONE', ( #80, #117, #126, #306 ) ) ;
#169 = EDGE_CURVE ( 'NONE', #226, #252, #90, .T. ) ;
#170 =( NAMED_UNIT ( * ) PLANE_ANGLE_UNIT ( ) SI_UNIT ( $, .RADIAN. ) );
#171 = ORIENTED_EDGE ( 'NONE', *, *, #229, .T. ) ;
#172 = ADVANCED_FACE ( 'NONE', ( #155 ), #263, .F. ) ;
#173 = ORIENTED_EDGE ( 'NONE', *, *, #148, .F. ) ;
#174 = DATE_AND_TIME ( #135, #318 ) ;
#175 = SHAPE_DEFINITION_REPRESENTATION ( #63, #319 ) ;
#176 = VECTOR ( 'NONE', #304, 1000.000000000000000 ) ;
#177 = CALENDAR_DATE ( 2020, 22, 12 ) ;
#178 = LOCAL_TIME ( 11, 14, 27.00000000000000000, #183 ) ;
#179 = CARTESIAN_POINT ( 'NONE',  ( -12.69999999999999751, -12.69999999999999929, 12.69999999999999929 ) ) ;
#180 = CARTESIAN_POINT ( 'NONE',  ( 12.69999999999999929, -12.69999999999999929, 12.69999999999999929 ) ) ;
#181 = CLOSED_SHELL ( 'NONE', ( #172, #26, #24, #215, #197 ) ) ;
#182 = CARTESIAN_POINT ( 'NONE',  ( 12.69999999999999929, 12.69999999999999929, -12.69999999999999929 ) ) ;
#183 = COORDINATED_UNIVERSAL_TIME_OFFSET ( 8, 0, .AHEAD. ) ;
#184 = DIRECTION ( 'NONE',  ( 1.000000000000000000, -2.220446049250312588E-16, 0.000000000000000000 ) ) ;
#185 = DATE_AND_TIME ( #156, #178 ) ;
#186 = PRODUCT_DEFINITION_FORMATION_WITH_SPECIFIED_SOURCE ( 'ANY', '', #232, .NOT_KNOWN. ) ;
#187 = VECTOR ( 'NONE', #98, 1000.000000000000000 ) ;
#188 = CARTESIAN_POINT ( 'NONE',  ( -12.69999999999999751, -12.69999999999999929, 12.69999999999999929 ) ) ;
#189 = DIRECTION ( 'NONE',  ( 0.000000000000000000, 0.000000000000000000, -1.000000000000000000 ) ) ;
#190 = FACE_OUTER_BOUND ( 'NONE', #124, .T. ) ;
#191 = EDGE_CURVE ( 'NONE', #140, #49, #292, .T. ) ;
#192 = CARTESIAN_POINT ( 'NONE',  ( 12.69999999999999574, 12.69999999999999574, 12.69999999999999929 ) ) ;
#193 = ORIENTED_EDGE ( 'NONE', *, *, #125, .T. ) ;
#194 = DIRECTION ( 'NONE',  ( -2.220446049250312588E-16, 1.000000000000000000, 0.000000000000000000 ) ) ;
#195 = ORIENTED_EDGE ( 'NONE', *, *, #109, .F. ) ;
#196 = LINE ( 'NONE', #84, #176 ) ;
#197 = ADVANCED_FACE ( 'NONE', ( #242 ), #115, .F. ) ;
#198 = PLANE ( 'NONE',  #2 ) ;
#199 = EDGE_LOOP ( 'NONE', ( #147, #54, #223 ) ) ;
#200 = CARTESIAN_POINT ( 'NONE',  ( -12.69999999999999574, -12.69999999999999396, -12.69999999999999929 ) ) ;
#201 = AXIS2_PLACEMENT_3D ( 'NONE', #179, #211, #287 ) ;
#202 = APPROVAL_DATE_TIME ( #231, #75 ) ;
#203 = APPROVAL ( #127, 'UNSPECIFIED' ) ;
#204 = COORDINATED_UNIVERSAL_TIME_OFFSET ( 8, 0, .AHEAD. ) ;
#205 = DIRECTION ( 'NONE',  ( 0.000000000000000000, 0.000000000000000000, 1.000000000000000000 ) ) ;
#206 = LINE ( 'NONE', #64, #91 ) ;
#207 = COORDINATED_UNIVERSAL_TIME_OFFSET ( 8, 0, .AHEAD. ) ;
#208 = VECTOR ( 'NONE', #288, 1000.000000000000000 ) ;
#209 = LINE ( 'NONE', #314, #256 ) ;
#210 = ADVANCED_FACE ( 'NONE', ( #190 ), #297, .F. ) ;
#211 = DIRECTION ( 'NONE',  ( 0.000000000000000000, 1.000000000000000000, 0.000000000000000000 ) ) ;
#212 = APPLICATION_CONTEXT ( 'configuration controlled 3d designs of mechanical parts and assemblies' ) ;
#213 = CARTESIAN_POINT ( 'NONE',  ( 12.69999999999999574, 12.69999999999999574, 12.69999999999999929 ) ) ;
#214 = DIRECTION ( 'NONE',  ( -0.7071067811865475727, -0.7071067811865475727, 0.000000000000000000 ) ) ;
#215 = ADVANCED_FACE ( 'NONE', ( #218 ), #221, .T. ) ;
#216 = APPROVAL_ROLE ( '' ) ;
#217 = CARTESIAN_POINT ( 'NONE',  ( 0.000000000000000000, 0.000000000000000000, 12.69999999999999929 ) ) ;
#218 = FACE_OUTER_BOUND ( 'NONE', #94, .T. ) ;
#219 = APPROVAL_PERSON_ORGANIZATION ( #159, #75, #283 ) ;
#220 = DIRECTION ( 'NONE',  ( 0.000000000000000000, 0.000000000000000000, 1.000000000000000000 ) ) ;
#221 = PLANE ( 'NONE',  #236 ) ;
#222 = CARTESIAN_POINT ( 'NONE',  ( -12.70000000000000284, 12.70000000000000284, 12.69999999999999929 ) ) ;
#223 = ORIENTED_EDGE ( 'NONE', *, *, #282, .T. ) ;
#224 = VECTOR ( 'NONE', #194, 1000.000000000000000 ) ;
#225 = EDGE_LOOP ( 'NONE', ( #253, #244, #195 ) ) ;
#226 = VERTEX_POINT ( 'NONE', #320 ) ;
#227 = EDGE_LOOP ( 'NONE', ( #73, #139, #281, #116 ) ) ;
#228 = VERTEX_POINT ( 'NONE', #241 ) ;
#229 = EDGE_CURVE ( 'NONE', #151, #298, #18, .T. ) ;
#230 = VECTOR ( 'NONE', #138, 1000.000000000000000 ) ;
#231 = DATE_AND_TIME ( #101, #161 ) ;
#232 = PRODUCT ( 'BK7-LPBSC-25.4-405', 'BK7-LPBSC-25.4-405', '', ( #17 ) ) ;
#233 = FACE_OUTER_BOUND ( 'NONE', #100, .T. ) ;
#234 = DIRECTION ( 'NONE',  ( 1.000000000000000000, -2.220446049250312588E-16, 0.000000000000000000 ) ) ;
#235 = DIRECTION ( 'NONE',  ( -0.000000000000000000, -0.000000000000000000, -1.000000000000000000 ) ) ;
#236 = AXIS2_PLACEMENT_3D ( 'NONE', #217, #220, #72 ) ;
#237 = DIRECTION ( 'NONE',  ( 1.000000000000000000, 0.000000000000000000, 0.000000000000000000 ) ) ;
#238 = PLANE ( 'NONE',  #201 ) ;
#239 = DATE_AND_TIME ( #106, #39 ) ;
#240 = AXIS2_PLACEMENT_3D ( 'NONE', #10, #103, #205 ) ;
#241 = CARTESIAN_POINT ( 'NONE',  ( -12.69999999999999751, -12.69999999999999929, -12.69999999999999929 ) ) ;
#242 = FACE_OUTER_BOUND ( 'NONE', #300, .T. ) ;
#243 = LINE ( 'NONE', #247, #187 ) ;
#244 = ORIENTED_EDGE ( 'NONE', *, *, #279, .F. ) ;
#245 = EDGE_CURVE ( 'NONE', #140, #78, #274, .T. ) ;
#246 = ORIENTED_EDGE ( 'NONE', *, *, #245, .T. ) ;
#247 = CARTESIAN_POINT ( 'NONE',  ( 12.69999999999999929, 12.69999999999999929, 12.69999999999999929 ) ) ;
#248 = SECURITY_CLASSIFICATION ( '', '', #102 ) ;
#249 = ORIENTED_EDGE ( 'NONE', *, *, #50, .F. ) ;
#250 = PLANE ( 'NONE',  #43 ) ;
#251 = ORIENTED_EDGE ( 'NONE', *, *, #169, .T. ) ;
#252 = VERTEX_POINT ( 'NONE', #21 ) ;
#253 = ORIENTED_EDGE ( 'NONE', *, *, #53, .F. ) ;
#254 = APPLICATION_PROTOCOL_DEFINITION ( 'international standard', 'config_control_design', 1994, #310 ) ;
#255 = CARTESIAN_POINT ( 'NONE',  ( 12.69999999999999574, 12.69999999999999574, 12.69999999999999929 ) ) ;
#256 = VECTOR ( 'NONE', #89, 1000.000000000000114 ) ;
#257 = EDGE_LOOP ( 'NONE', ( #28, #145, #122, #251 ) ) ;
#258 = APPROVAL_DATE_TIME ( #185, #143 ) ;
#259 = EDGE_CURVE ( 'NONE', #120, #228, #277, .T. ) ;
#260 = CARTESIAN_POINT ( 'NONE',  ( 12.69999999999999929, 12.69999999999999929, 12.69999999999999929 ) ) ;
#261 = ORIENTED_EDGE ( 'NONE', *, *, #259, .F. ) ;
#262 = CARTESIAN_POINT ( 'NONE',  ( 12.69999999999999929, 12.69999999999999929, 12.69999999999999929 ) ) ;
#263 = PLANE ( 'NONE',  #289 ) ;
#264 = CC_DESIGN_PERSON_AND_ORGANIZATION_ASSIGNMENT ( #12, #149, ( #186 ) ) ;
#265 = CARTESIAN_POINT ( 'NONE',  ( 12.69999999999999574, 12.69999999999999574, -12.69999999999999929 ) ) ;
#266 = DATE_AND_TIME ( #177, #305 ) ;
#267 = DIRECTION ( 'NONE',  ( 0.000000000000000000, 0.000000000000000000, 1.000000000000000000 ) ) ;
#268 = CC_DESIGN_APPROVAL ( #203, ( #186 ) ) ;
#269 = DIRECTION ( 'NONE',  ( 0.7071067811865475727, -0.7071067811865475727, 0.000000000000000000 ) ) ;
#270 = EDGE_CURVE ( 'NONE', #120, #226, #134, .T. ) ;
#271 = DIRECTION ( 'NONE',  ( -2.220446049250312588E-16, 1.000000000000000000, 0.000000000000000000 ) ) ;
#272 = EDGE_CURVE ( 'NONE', #7, #298, #295, .T. ) ;
#273 = DIRECTION ( 'NONE',  ( -0.000000000000000000, 1.000000000000000000, -0.000000000000000000 ) ) ;
#274 = LINE ( 'NONE', #136, #44 ) ;
#275 = ORIENTED_EDGE ( 'NONE', *, *, #55, .T. ) ;
#276 = CC_DESIGN_PERSON_AND_ORGANIZATION_ASSIGNMENT ( #59, #317, ( #248 ) ) ;
#277 = LINE ( 'NONE', #45, #230 ) ;
#278 = CARTESIAN_POINT ( 'NONE',  ( 0.000000000000000000, 0.000000000000000000, 12.69999999999999929 ) ) ;
#279 = EDGE_CURVE ( 'NONE', #252, #57, #296, .T. ) ;
#280 = VECTOR ( 'NONE', #235, 1000.000000000000000 ) ;
#281 = ORIENTED_EDGE ( 'NONE', *, *, #270, .F. ) ;
#282 = EDGE_CURVE ( 'NONE', #226, #56, #243, .T. ) ;
#283 = APPROVAL_ROLE ( '' ) ;
#284 = PERSON_AND_ORGANIZATION ( #154, #313 ) ;
#285 = EDGE_CURVE ( 'NONE', #49, #151, #5, .T. ) ;
#286 = CARTESIAN_POINT ( 'NONE',  ( 12.69999999999999574, 12.69999999999999574, -12.69999999999999929 ) ) ;
#287 = DIRECTION ( 'NONE',  ( 0.000000000000000000, -0.000000000000000000, 1.000000000000000000 ) ) ;
#288 = DIRECTION ( 'NONE',  ( -0.000000000000000000, -0.000000000000000000, -1.000000000000000000 ) ) ;
#289 = AXIS2_PLACEMENT_3D ( 'NONE', #213, #42, #93 ) ;
#290 = LINE ( 'NONE', #35, #118 ) ;
#291 = APPROVAL_ROLE ( '' ) ;
#292 = LINE ( 'NONE', #192, #19 ) ;
#293 = CC_DESIGN_PERSON_AND_ORGANIZATION_ASSIGNMENT ( #307, #58, ( #186 ) ) ;
#294 = VECTOR ( 'NONE', #189, 1000.000000000000000 ) ;
#295 = LINE ( 'NONE', #163, #129 ) ;
#296 = LINE ( 'NONE', #165, #60 ) ;
#297 = PLANE ( 'NONE',  #69 ) ;
#298 = VERTEX_POINT ( 'NONE', #96 ) ;
#299 = DIRECTION ( 'NONE',  ( -0.7071067811865475727, -0.7071067811865475727, 0.000000000000000000 ) ) ;
#300 = EDGE_LOOP ( 'NONE', ( #144, #77, #99 ) ) ;
#301 = ADVANCED_FACE ( 'NONE', ( #302 ), #198, .T. ) ;
#302 = FACE_OUTER_BOUND ( 'NONE', #199, .T. ) ;
#303 = ORIENTED_EDGE ( 'NONE', *, *, #229, .F. ) ;
#304 = DIRECTION ( 'NONE',  ( 0.000000000000000000, 0.000000000000000000, -1.000000000000000000 ) ) ;
#305 = LOCAL_TIME ( 11, 14, 27.00000000000000000, #83 ) ;
#306 = ORIENTED_EDGE ( 'NONE', *, *, #50, .T. ) ;
#307 = PERSON_AND_ORGANIZATION ( #154, #313 ) ;
#308 = COORDINATED_UNIVERSAL_TIME_OFFSET ( 8, 0, .AHEAD. ) ;
#309 = CARTESIAN_POINT ( 'NONE',  ( -12.69999999999999574, -12.69999999999999396, 12.69999999999999929 ) ) ;
#310 = APPLICATION_CONTEXT ( 'configuration controlled 3d designs of mechanical parts and assemblies' ) ;
#311 = CARTESIAN_POINT ( 'NONE',  ( 0.000000000000000000, 0.000000000000000000, 0.000000000000000000 ) ) ;
#312 = LINE ( 'NONE', #182, #86 ) ;
#313 = ORGANIZATION ( 'UNSPECIFIED', 'UNSPECIFIED', '' ) ;
#314 = CARTESIAN_POINT ( 'NONE',  ( 12.69999999999999929, 12.69999999999999929, 12.69999999999999929 ) ) ;
#315 = CC_DESIGN_PERSON_AND_ORGANIZATION_ASSIGNMENT ( #112, #9, ( #232 ) ) ;
#316 = CARTESIAN_POINT ( 'NONE',  ( 12.69999999999999574, 12.69999999999999574, -12.69999999999999929 ) ) ;
#317 = PERSON_AND_ORGANIZATION_ROLE ( 'classification_officer' ) ;
#318 = LOCAL_TIME ( 11, 14, 27.00000000000000000, #207 ) ;
#319 = ADVANCED_BREP_SHAPE_REPRESENTATION ( 'BK7-LPBSC-25.4-405', ( #157, #61, #15 ), #111 ) ;
#320 = CARTESIAN_POINT ( 'NONE',  ( 12.69999999999999929, -12.69999999999999929, 12.69999999999999929 ) ) ;
#321 = CC_DESIGN_DATE_AND_TIME_ASSIGNMENT ( #266, #32, ( #164 ) ) ;
ENDSEC;
END-ISO-10303-21;
